Tablature de "Au clair de la lune" à la guitare

guitare acoustique

 

Tablature pour jouer de la guitare facilement

 

      C                  G                  C
e|----------------|----------------|----------------|
B|----1-------1---|----0-------0---|----1-------1---|
G|------0-------0-|------0-------0-|------0-------0-|
D|----2-------2---|----0-------0---|----2-------2---|
A|----------------|----2-------2---|----------------|
E|----------------|----------------|----3-------3---|

      C                  G                  C
e|----------------|----------------|----------------|
B|----1-------1---|----0-------0---|----1-------1---|
G|------0-------0-|------0-------0-|------0-------0-|
D|----2-------2---|----0-------0---|----2-------2---|
A|----------------|----2-------2---|----------------|
E|----------------|----------------|----3-------3---|

      C                  G                  C
e|----------------|----------------|----------------|
B|----1-------1---|----0-------0---|----1-------1---|
G|------0-------0-|------0-------0-|------0-------0-|
D|----2-------2---|----0-------0---|----2-------2---|
A|----------------|----2-------2---|----------------|
E|----------------|----------------|----3-------3---|

      F                  C                  G
e|----1-------1---|----------------|----3-------3---|
B|----1-------1---|----1-------1---|----3-------3---|
G|----2-------2---|------0-------0-|----0-------0---|
D|----3-------3---|----2-------2---|----------------|
A|----3-------3---|----3-------3---|----------------|
E|----------------|----------------|----------------|

      F                  C                  C
e|----1-------1---|----------------|----------------|
B|----1-------1---|----1-------1---|----1-------1---|
G|----2-------2---|------0-------0-|------0-------0-|
D|----3-------3---|----2-------2---|----2-------2---|
A|----3-------3---|----3-------3---|----3-------3---|
E|----------------|----------------|----------------|
  

 

 

Conseils pour jouer "Au clair de la lune" à la guitare

Apprendre la mélodie et les accords

Une fois la tablature sous les yeux, prenez le temps de bien la lire et de vous familiariser avec les accords et les notes qui composent la mélodie. Vous remarquerez que les accords de base utilisés sont Do, Sol et Fa. En utilisant la tablature, placez vos doigts sur les cordes du manche de la guitare pour produire les accords indiqués.

Pour jouer la mélodie, suivez les chiffres indiqués sur les lignes correspondant aux cordes de la guitare. Ces chiffres représentent les notes à réaliser, et en les suivant, vous pourrez progressivement apprendre la mélodie de "Au clair de la lune". 🎶

En tant que débutant, il est important de commencer lentement pour bien assimiler les positions des doigts et les transitions entre les accords. Prenez votre temps et répétez les passages qui vous posent des difficultés jusqu'à ce que vous vous sentiez à l'aise.

Pour parfaire votre exécution de la chanson, vous pouvez rechercher des vidéos en ligne où des guitaristes jouent "Au clair de la lune". Cela vous permettra de visualiser comment jouer la chanson et d'obtenir des conseils supplémentaires pour une meilleure interprétation.

Maîtriser le rythme de la chanson

Pour maîtriser le rythme de "Au clair de la lune" à la guitare acoustique, il est essentiel de bien comprendre la structure rythmique de la chanson. La tablature vous indique les notes à jouer, mais pour obtenir le bon rythme, vous devez écouter attentivement l'enregistrement original de la chanson ou rechercher une vidéo en ligne d'une performance pour vous imprégner du tempo et du style musical.

En tant que débutant, il est conseillé de commencer lentement. Prenez le temps de bien jouer chaque note et accords avec précision, sans vous presser. En utilisant un métronome, commencez à un tempo confortable, puis augmentez progressivement la vitesse lorsque vous vous sentez plus à l'aise.

La main gauche joue un rôle crucial dans le rythme. Assurez-vous de garder une pression uniforme sur les cordes pour que les notes sonnent clairement et durent le temps nécessaire. Pratiquez les transitions entre les accords pour éviter les hésitations et les pauses indésirables dans le flux musical.

Entraînez-vous régulièrement pour développer votre sens du rythme. Vous pouvez jouer en boucle des passages rythmiques spécifiques pour améliorer votre précision et votre coordination entre les mains gauche et droite. Faites des exercices avec le métronome pour renforcer votre stabilité rythmique.

Soyez attentif aux accents et aux temps forts dans la chanson. Cela ajoutera de la dynamique et de l'expression à votre interprétation. Jouez certains passages plus fort et d'autres plus doucement pour créer une variation de volume qui rendra votre jeu plus captivant.

Ajouter des variations à la partition de musique

Pour complexifier "Au clair de la lune" à la guitare acoustique et ajouter des variations, vous pouvez explorer différentes techniques et styles de jeu pour donner à la chanson votre propre version. Une façon de le faire est d'ajouter des arpèges aux accords de base. Au lieu de simplement gratter les accords, essayez de jouer les notes des accords une par une de manière fluide, en montant et en descendant. 🎼

Une autre idée pour enrichir votre version est d'ajouter des transitions entre les accords. Par exemple, vous pouvez essayer de jouer des accords avec des enchaînements plus complexes, en utilisant des doigtés alternatifs pour créer un son plus riche et plus intéressant. Vous pouvez également expérimenter avec des accords de septième, des accords suspendus ou des accords d'ajout pour donner une couleur unique à votre jeu.

N'hésitez pas à jouer avec le rythme en utilisant des rythmes syncopés ou des contretemps. Cela ajoutera une touche d'originalité à votre interprétation et rendra la chanson plus dynamique. Vous pouvez également jouer certains passages en utilisant des techniques de picking pour créer des nuances et des variations de volume.

L'ajout de mélodies supplémentaires peut également donner une nouvelle dimension à "Au clair de la lune". Vous pouvez improviser des petites phrases mélodiques entre les accords ou jouer la mélodie principale avec des variations. Expérimentez avec les notes pour créer des motifs intéressants et ajoutez des slides, des bends ou des vibratos pour enrichir votre jeu. 🎹

Enfin, vous pouvez incorporer des techniques d'arrangement telles que l'usage de la capo pour changer la tonalité, ou ajouter des harmonies vocales si vous chantez en même temps. Ces ajouts apporteront une dimension supplémentaire à votre interprétation de la chanson.

Retour au blog